Kontrollrummet

Författare Ämne: Out Of Kontroll - JAM-låtar  (läst 7547 gånger)

0 medlemmar och 1 gäst tittar på detta ämne.

Utloggad Festivalpool

  • Nykomling
  • *
  • Antal inlägg: 42
    • Visa profil
Out Of Kontroll - JAM-låtar
« skrivet: 24.08.2011, 20:09:36 »
Det kommer att bli tid för jam på festivalen - den här gången tänkte vi att det kan vara bra att ha förslag på Jam-låtar i god tid innan festivalen så att fler kan öva på dessa.

Vi vill alltså ha förslag på Jam-låtar och tonart i denna tråd som vi sedan uppdaterar här i första posten.

JAM-LÅTAR:
All Along The Watchtower
Johnny be good
With a little help from my friends
I shall be released
Twist&shout/la bamba
Knocking on heavens door
Y
Z

 Title:   ALL ALONG THE WATCHTOWER                (Bob Dylan)

             Am                G                F           G   Am 
            (play it forever)
                There must be some kind of way out of here
                Said the joker to the thief
                There's too much confusion
                I can't get no relief

                Buisness men they drink my wine
                Plowmen dig my earth
                None would ever compromise
                Nobody of this world


                No reason to get excited
                The thief he kindly spoke
                There are many here among us
                Who feel that life is but a joke

                But you and I we've been through that
                And this is not our place
                So let us stop talking falsely now
                The hour's getting late


                All along the watchtower
                Princess kept the view
                While all the women came and went
                Barefoot servants too

                Outside in the cold distance
                A wildcat did growl
                Two riders were approaching
                And the wind began to howl

                All along the watchtower
                All along the watchtower
                All along the watchtower

Johnny Be Good Lyrics
 Deep down in Louisiana close to New Orleans,
Way back up in the woods among the evergreens...
There stood a log cabin made of earth and wood,
Where lived a country boy name Johnny B. Goode...
Who never ever learned to read or write so well,
But he could play the guitar just like a ringing a bell.

Go Go
Go Johnny Go
Go
Go Johnny Go
GO
go johnny go
go
go johnny go
go
Johny be good

He use to carry his guitar in a gunny sack
And sit beneath the trees by the railroad track.
Oh, the engineers used to see him sitting in the shade,
Strumin with the rhythm that the drivers made.
People passing by they would stop and say
Oh my that little country boy could play

Go Go
Go Johnny Go
Go
go johnny go
go
go johnny go
go
go johnny go
go
Johny be good

His mama told him someday he would be a man,
And you would be the leader of a big old band.
Many people coming from miles around
To hear you play your music when the sun go down
Maybe someday your name will be in lights
Saying Johnny B. Goode tonight.

go go
go johnny go
go go
go johnny
go go
go johnny go
go go
go johnny go
go
johnny be good

With A Little Help From My Friends Lyrics

 What Would You Do If I Sang Out Of Tune
Would You Stand Up And Walk Out On Me
Lend Me Your Ears And I'll Sing You A Song
I Will Try Not To Sing Out Of Key

ohh Baby I Get By,
(by with a little help of my friends)
All i need is my buddies
(try with a little help of my friends)
I said I Want To Get High I will
(High With a little help of my friends)
Who-Ho-Hoo-yeah

What Do I Do When My Love Is Away,
(Does it worry for you to be alone?)
no no
How Do I Feel By The End Of The Day
(Are you said because your on your own)
I hope you Don`t say it no more

(by with a little help of my friends)
gonna get by with my friends
(try With a little help from my friends)
heel-heel-heel I`ll will try
(high with a little help from my friends)
keeping it high I will

Chorus

(Do you need anybody)
I Need Someone To Love
(Could it be anybody)
All I Need Is Someone, who knows just where I`m going yeah
Somebody who knows quiet sure, baby


(by with a little help from my friends)
said I`m gonna make it with my friends, i will
(try with a little help from my friends)
Who-hoo-I wonna keep on trying
(high with a little help from my friends)
i`m gonna keep on trying


Chorus

(Would You Believe In A Love At First Sight?)
I'm Certain It Happens All The Time yeah
(What Do You See When You Turn Off The Lights?)
I can`t tell ya, but it sure feel like mine

(by with a little friend from my friends)
Don`t you know I`m gonna make it with my friends
(Try with a little friend from my friends)
I promised my self I get by
(high with a little friend from my friends)
Said I`m gonna try it a little to hard

Chorus

(Do you need anybody)
ohaaa- yeah yeah yeah
(Could it be anybody)
Oh there`s gonna be somebody
Ohh yeah yeah

(by with a little help from my friends)
Said i`m gonna get by with my friend, I tell ya
(try with a little help from my friends)
Ooh yes I`m gonna keep trying
(high with a little help from my friends)
Keeping it trying with my friends
(by with a little help from my friends)
Ooh you never gonna stop me anymore
(try with a little help from my friends)
I`ll keep on trying
(high with a little help from my friends)
get on high, i`m wanna make time oh lord
Gonna get by with my friends

I Shall Be Released
By Bob Dylan

A                            Bm
They say everything can be replaced

C#m        Bm              A     E7
 Yet every distance is not near

A                  Bm
So I remember every face

C#m          Bm          A       E7
 Of every man who put me here.

A                   Bm
I see my light come shining

C#m          Bm         A
 From the west unto the east.

A
 Any day now,

Bm
 Any day now,

C#m Bm       A
 I shall be released

They say every man needs protection.
They every man must fall.
Yet I swear I see my reflection,
Somewhere so high above the wall.
I see my light come shining,
>From the west unto the east.
Any day now,
Any day now,
I shall be released.

Well onder stands a man in this lonely crowd,
A man who swears he not to blame.
All day long I hear him cry shouting loud,
Calling out that he's been framed.
I see my light come shining,
>From the west unto the east.
Any day now,
Any day now,
I shall be released.


                        TWIST AND SHOUT


INTRO
                               D               G                     
E------------------------------2------------------------------------
B------------------------------3------------------------------------
G------------------------------2------------------------------------
D------------------------0-----------------------0--------0---------
A------0-----2-----4-----------------------------2--------2---------
E------------------------------------------------3--------3---------
                                                                   

    A                                                               
E-------------------------------------------------------------------
B---2---------------------------------------------------------------
G---2---------------------------------------------------------------
D---2---------------------------------------------------------------
A---0-----0-----0-----0-----0---------------------------------------
E-------------------------------------------------------------------
                                                                   

         
PLAY INTRO UNDER THE VOCAL

Well shake it up baby now, twist and shout
Come on come on come on come on baby , now work it on out
Well work it on out  , you know you look so good
You know you got me goin' now , just like you knew you would



         Ahh            Ahh           Ahh             Ahh
E---------------------------------------0--------------3------------
B------------------------2--------------2--------------2------------
G---------2--------------2--------------2--------------2------------
D---------2-----2-----2--2-----2-----2--------2-----2---------------
A---------0--0-----0--------0-----0--------0-----0------------------
E-------------------------------------------------------------------




CONTINUE WITH THE INTRO UNDER THE VOCALS

Well shake it up baby now, twist and shout
Come on come on come on come on baby , now work it on out
You know you twist it little girl , you know you twist so fine
Come on and twist a little closer now, and let me know that you're mine


Well shake it up baby now, twist and shout
Come on come on come on come on baby , now work it on out
You know you twist it little girl , you know you twist so fine
Come on and twist a little closer now, and let me know that you're mine



Well shake it shake it shake it baby now
Well shake it shake it shake it baby now
Well shake it shake it shake it baby now

 

GUITAR BREAK           
                                                         ETC
E-------------------------------------------------------------------
B------------------------0-----3-----2-----------0------------------
G---------2--------2-----------4-----2-----2--------2---------------
D---------2--------2-----------------------2--------2---------------
A-------------------------------------------------------------------
E-------------------------------------------------------------------

Knocking On Heavens Door Tab





Knockin' on Heaven's Door
Guns N' Roses
Use your illusion II

Tuned half step down

fill 2 (used on intro and verses)
  G5            D                C
|-3---3--------------2-0-------|-----------------0--------------------|
|-3-----3---3------3-----3---3-|----------1--------------1------------|
|-0-------0------2---------2---|-0------0---0----------0---0-0------0-|
|-0------------0---------------|-0h2----------2------2-------0h2------|
|------------------------------|------3---------------------------3---|
|-3----------------------------|--------------------------------------|

fill 1 (used only in verses)
  G5              D                  Am
|-3--------------2-------2-0-------|-0-------------0----------------------|
|-3---3-------3--3-------3-------0-|-1----0h1-------------1---------------|
|-0---0-----0----2----2-------2----|-2--2-----2---------2---2------0---0--|
|-0---0-----0----0----0------------|-2----------2-----2-------0h2----2----|
|----------------------------------|-0------------------------------------|
|-3--------------------------------|--------------------------------------|

Song goes like this:

Intro: Twice with picking fill 2  G5 D C
       Twice just power chords    G5 D C

Verse 1 (with fill 1)
G5         D               Am
Mamma take this badge from me

        (with fill 2)
G5         D         C
I can't use it anymore

        (with fill 1)
G5                D             Am
It's getting dark, too dark to see

        (with fill 2)
G5             D                       C
Feels like I'm knockin' on heaven's door



Chorus:
G5            D5                     C5
Knock, knock, knockin' on heaven's door,
C5
Hey, hey, hey, hey, yeah
G5            D5                     C5
Knock, knock, knockin' on heaven's door,
C5
(no lyrics)
G5                 D5                     C5
Ooh, knock, knock, knockin' on heaven's door
C5
Ooh yeah
G5            D5                     C5
Knock, knock, knockin' on heaven's door
C5
Hey, hey, hey, hey, yeah

 Solo 1: (over G D and C chords)
|----------------------------------------------------------|
|--------------------15fb----------------------------------|
|-12-14fb-14p12-14---------14-12-12~~~----------------12---|
|------------------------------------------13/14-----------|
|----------------------------------------------------------|
|----------------------------------------------------------|


|--------------------------------------------------------15----|
|-15/17--15---13p12-13/15--13p12---13p12-----------12-13----13-|
|--------------------------------------------------------------|
|-----------------------------------------14~~~----------------|
|--------------------------------------------------------------|
|--------------------------------------------------------------|


|--------------15-17fb--17--17fb--17fb--15----20fb-20p19-20-|
|12~~~---15/17----------------------------------------------|
|-----------------------------------------------------------|
|-----------------------------------------------------------|
|-----------------------------------------------------------|
|-----------------------------------------------------------|

|-19-20fb--20-20-20------------------------------------------------|
|-------------------17~~~------------------------------------------|
|-------------------------19fb-19-19fb-19--------------------------|
|-----------------------------------------19fb-19-19fb-19----------|
|----------------------------------------------------------17--17--|
|------------------------------------------------------------------|

 Solo 2:
|-------------------------------------------------------|
|--19b~~~~~~~r-19---19brp17-19-1717----20-17--20-17br---|
|-------------------------------------------------------|
|-------------------------------------------------------|
|-------------------------------------------------------|
|-------------------------------------------------------|

|----------------------------------------16---18b-18p16-|
|-1517--1517--------1517---------------13--16-----------|
|-----------------------------------/13-----------------|
|-----17----19br1719----19br19br17----------------------|
|-------------------------------------------------------|
|-------------------------------------------------------|

|-16-18p16-16-20-19-20-22b-20-19-20-22b--20-19-20-22b-22b-22b---------|
|-------------------------------------------------------------20-22b--|
|---------------------------------------------------------------------|
|---------------------------------------------------------------------|
|---------------------------------------------------------------------|
|---------------------------------------------------------------------|

|----------------------------------------------------------------|
|--20-22br-20-22-22b-20-22-20--20~~---20-19----19br-17-19-17-17--|
|----------------------------------------------------------------|
|----------------------------------------------------------------|
|----------------------------------------------------------------|
|----------------------------------------------------------------|

|----------------------------------------------------------------|
|-2017--17~~15~~12~~~~~~-----------------------------------------|
|------------------------12~--11~---11br-9~---7--5/4-------------|
|----------------------------------------------------5-----------|
|----------------------------------------------------------------|
|----------------------------------------------------------------|

  Solo 2 (another version)
|---------------------------------------------------------------------------|
|-------------20~~~~-20--19~~--19b(20)r19---17-19p17-17~~--20-15b(17)--20---|
|----17---------------------------------------------------------------------|
|-------17------------------------------------------------------------------|
|---------------------------------------------------------------------------|
|---------------------------------------------------------------------------|

|--------------------------15-----------------------15----------------------|
|-15b(17)r(15)--13-15-12~~~---15--10b(12)r10----------15----10/12---10/12---|
|---------------------------------------------12/14-------------------------|
|---------------------------------------------------------------------------|
|---------------------------------------------------------------------------|
|---------------------------------------------------------------------------|

|----------------15------17/19---17p15h17p15---20p19-20b(22)--20p19-20b(22)-|
|-------------15----15------------------------------------------------------|
|-12~~~--14/16--------------------------------------------------------------|
|---------------------------------------------------------------------------|
|---------------------------------------------------------------------------|
|---------------------------------------------------------------------------|

                                  (Hold bend)
|20p19-20-22b(24)-22b(24)-----------22--------------------------------------|
|-------------------------20-22b(24)--22-r22--20--22pb(24)r22b(24)r22-20----|
|---------------------------------------------------------------------------|
|---------------------------------------------------------------------------|
|---------------------------------------------------------------------------|
|---------------------------------------------------------------------------|

|---------------------------------------------------------------------------|
|-20~~-20-19-19b(20)r19--17--19p17--17~---20--15b(17)---20-----15b(17)--13--|
|---------------------------------------------------------------------------|
|---------------------------------------------------------------------------|
|---------------------------------------------------------------------------|
|---------------------------------------------------------------------------|

|---------------------------------------------------------------------------|
|-15-12~~-------------------------------------------------------------------|
|--------12~~~--11~~~-11b(12)r11/9--9~~~------------------------------------|
|---------------------------------------12~~9b(10)r9------------------------|
|-----------------------------------------------------10--------------------|
|---------------------------------------------------------------------------|



Notation:
h - hammer on
p - pull off
/ - slide
~ - vibrato
b - bend; number in brackets shows the target fret
r - release bend back to initial fret after bend
 

« Senast ändrad: 08.09.2011, 17:44:12 by Festivalpool »

Utloggad Fuzzbub

  • Idol
  • ****
  • Antal inlägg: 1 599
  • Gitarrspelande protopunkdiggande exilnorrlänning!
    • Visa profil
    • AboutHen på Soundcloud
SV: Out Of Kontroll - JAM-låtar
« Svar #1 skrivet: 25.08.2011, 00:06:05 »
Bra grepp!

För att komma igång med nåt så föreslår jag "All Along The Watchtower"   - Bob Dylan. 
Sen om man kör Dylan- ,Hendrix-  eller Neil Young-stuk låter jag vara osagt.
Tonart valbar på denna låt eftersom det bara är tre ackord, exempelvis  Am G F G :||     Vem vill sjunga?   :)     /JEH
"Vi simmar alla i samma båt" - Refaat El Sayed

Utloggad Eddi

  • Moderator
  • Elvis
  • ******
  • Antal inlägg: 12 931
    • Visa profil
    • Harmonisnurran det stora uppslagsverket i det lilla formatet
SV: Out Of Kontroll - JAM-låtar
« Svar #2 skrivet: 25.08.2011, 01:59:38 »
Bra grepp!

För att komma igång med nåt så föreslår jag "All Along The Watchtower"   - Bob Dylan. 
Sen om man kör Dylan- ,Hendrix-  eller Neil Young-stuk låter jag vara osagt.
Tonart valbar på denna låt eftersom det bara är tre ackord, exempelvis  Am G F G :||     Vem vill sjunga?   :)     /JEH
Javisst All Along är ju jättebra. Om alla som vill sjunga lär sig texten så kan det ju bli hur bra som helst.
Strävar framåt men blickar bakåt för säkerhets skull
Harmonisnurran det stora uppslagsverket i det lilla formatet:
http://www.wideworld.se

Utloggad MaxB

  • Moderator
  • Elvis
  • ******
  • Antal inlägg: 16 739
    • Visa profil
    • http://elvshand.shivas.se
  • Soundcloud: gitarr
SV: Out Of Kontroll - JAM-låtar
« Svar #3 skrivet: 25.08.2011, 06:49:19 »
"There must be some way out of here" said the joker to the thief
"There's too much confusion", I can't get no relief
Businessmen, they drink my wine, plowmen dig my earth
None of them along the line know what any of it is worth.

"No reason to get excited", the thief he kindly spoke
"There are many here among us who feel that life is but a joke
But you and I, we've been through that, and this is not our fate
So let us not talk falsely now, the hour is getting late".

All along the watchtower, princes kept the view
While all the women came and went, barefoot servants, too.

Outside in the distance a wildcat did growl
Two riders were approaching, the wind began to howl.
Jag lever i dået nu och är ingen kändis. Det är min Mini-Magitron - på Google

Utloggad IKEN

  • Moderator
  • List-etta
  • ******
  • Antal inlägg: 983
    • Visa profil
SV: Out Of Kontroll - JAM-låtar
« Svar #4 skrivet: 25.08.2011, 09:50:05 »
Den är ju kanon att jamma till!
''Can i have everything louder than anything else''
Ritchie Blackmore 1972

Utloggad Eddi

  • Moderator
  • Elvis
  • ******
  • Antal inlägg: 12 931
    • Visa profil
    • Harmonisnurran det stora uppslagsverket i det lilla formatet
SV: Out Of Kontroll - JAM-låtar
« Svar #5 skrivet: 25.08.2011, 20:31:32 »
With a little help from my friends?
Johnny be good?
I shall be released?
Strävar framåt men blickar bakåt för säkerhets skull
Harmonisnurran det stora uppslagsverket i det lilla formatet:
http://www.wideworld.se

Utloggad badlands

  • Moderator
  • Talang
  • ******
  • Antal inlägg: 436
    • Visa profil
SV: Out Of Kontroll - JAM-låtar
« Svar #6 skrivet: 25.08.2011, 20:34:22 »
With a little help from my friends?

Version?
Joe Cocker (mycket bra !!!) eller Beatles?
Kan va lite pysslig att jamma kring med tanke på att det händer grejjer i låten.... (Joe Cocker versionen)
Nobody sings Dylan like Dylan

Utloggad MaxB

  • Moderator
  • Elvis
  • ******
  • Antal inlägg: 16 739
    • Visa profil
    • http://elvshand.shivas.se
  • Soundcloud: gitarr
SV: Out Of Kontroll - JAM-låtar
« Svar #7 skrivet: 25.08.2011, 20:57:16 »
With a little help from my friends?
Johnny be good?
I shall be released?

I shall be released gillar jag att spela men det är ett antal ackord och stoppet som kommer några gånger i låten kan ju (miss)lyckas på flera sätt.
Jag lever i dået nu och är ingen kändis. Det är min Mini-Magitron - på Google

Utloggad Festivalpool

  • Nykomling
  • *
  • Antal inlägg: 42
    • Visa profil
SV: Out Of Kontroll - JAM-låtar
« Svar #8 skrivet: 01.09.2011, 11:42:49 »
Första posten uppdaterad - fler låtar?

Utloggad badlands

  • Moderator
  • Talang
  • ******
  • Antal inlägg: 436
    • Visa profil
SV: Out Of Kontroll - JAM-låtar
« Svar #9 skrivet: 02.09.2011, 19:14:02 »
MaxB !!!!

Var det så här du tänkte dig jam på I Shall Be Realesed ???
&feature=fvwrel
Nobody sings Dylan like Dylan

Utloggad MaxB

  • Moderator
  • Elvis
  • ******
  • Antal inlägg: 16 739
    • Visa profil
    • http://elvshand.shivas.se
  • Soundcloud: gitarr
SV: Out Of Kontroll - JAM-låtar
« Svar #10 skrivet: 02.09.2011, 20:28:34 »
MaxB !!!!
Var det så här du tänkte dig jam på I Shall Be Realesed ???
&feature=fvwrel

Absolut ungefär sådär. Tur för de där gubbarna att de redan är kända i musikerkretsar. Efter den där sångprestationen borde de inte få några fler gigg nånstans. Och vi borde kunna sjunga minst lika falskt som Bob Dylan gör på den här inspelningen. Tyckte jag såg Van Morrison bredvid Bob också men han fick inte chansen att sjunga sista versen, nej det skulle Bob göra, falskare än nånsin.  :lol:
« Senast ändrad: 02.09.2011, 20:41:09 by MaxB »
Jag lever i dået nu och är ingen kändis. Det är min Mini-Magitron - på Google

Utloggad badlands

  • Moderator
  • Talang
  • ******
  • Antal inlägg: 436
    • Visa profil
SV: Out Of Kontroll - JAM-låtar
« Svar #11 skrivet: 02.09.2011, 20:45:57 »
MaxB !!!!
Var det så här du tänkte dig jam på I Shall Be Realesed ???
&feature=fvwrel

Absolut ungefär sådär. Tur för de där gubbarna att de redan är kända i musikerkretsar. Efter den där sångprestationen borde de inte få några fler gigg nånstans. Och vi borde kunna sjunga minst lika falskt som Bob Dylan gör på den här inspelningen. Tyckte jag såg Van Morrison bredvid Bob också men han fick inte chansen att sjunga sista versen, nej det skulle Bob göra, falskare än nånsin.  :lol:
Well well gubben skrev skräpet så sista ordet är väl hans eller? :-) Van the Man var där och fick nog inte som ham ville :-)
Nobody sings Dylan like Dylan

Utloggad tsmalmbe

SV: Out Of Kontroll - JAM-låtar
« Svar #12 skrivet: 03.09.2011, 16:08:06 »
Springsteen brukar ju köra en 30 minutare på twist&shout/la bamba, det kunde väl vara nåt alla kan delta i? Någon måste ta på sig introt på gitarren men sen är det ju bara att köra.
.:: Jag mixar och mastrar din demo - ta kontakt :::: GTalk tsmalmbe@gmail.com / www.studiomjau.se / Min Soundcloud   / Mitt företag::.

Utloggad Eddi

  • Moderator
  • Elvis
  • ******
  • Antal inlägg: 12 931
    • Visa profil
    • Harmonisnurran det stora uppslagsverket i det lilla formatet
SV: Out Of Kontroll - JAM-låtar
« Svar #13 skrivet: 03.09.2011, 23:22:04 »
Javisst det kan väl inte vara så svårt och det kanske lockar med någon blåsare till Gula Villan - kan nog funka med munspel oxå.

En annan jag tänkte på var Going Home av Ten years after kräver lite fingerfärdighet men en juste låt.
Strävar framåt men blickar bakåt för säkerhets skull
Harmonisnurran det stora uppslagsverket i det lilla formatet:
http://www.wideworld.se

Utloggad Eddi

  • Moderator
  • Elvis
  • ******
  • Antal inlägg: 12 931
    • Visa profil
    • Harmonisnurran det stora uppslagsverket i det lilla formatet
SV: Out Of Kontroll - JAM-låtar
« Svar #14 skrivet: 07.09.2011, 17:37:45 »
BUMP
Strävar framåt men blickar bakåt för säkerhets skull
Harmonisnurran det stora uppslagsverket i det lilla formatet:
http://www.wideworld.se

Utloggad MaxB

  • Moderator
  • Elvis
  • ******
  • Antal inlägg: 16 739
    • Visa profil
    • http://elvshand.shivas.se
  • Soundcloud: gitarr
SV: Out Of Kontroll - JAM-låtar
« Svar #15 skrivet: 08.09.2011, 06:51:15 »
När det nu är aktuellt i Bow35:s tråd kom jag på att en lämplig jamlåt är "Knocking on heavens door"
Jag lever i dået nu och är ingen kändis. Det är min Mini-Magitron - på Google

Utloggad Fuzzbub

  • Idol
  • ****
  • Antal inlägg: 1 599
  • Gitarrspelande protopunkdiggande exilnorrlänning!
    • Visa profil
    • AboutHen på Soundcloud
SV: Out Of Kontroll - JAM-låtar
« Svar #16 skrivet: 08.09.2011, 11:59:18 »
Om någon fingerfärdig gitarrist kan köra introt så är ju Little Wing jäkligt bra att jamma till.  Superb låt dessutom! 

 /JEH
« Senast ändrad: 08.09.2011, 12:01:44 by Fuzzbub »
"Vi simmar alla i samma båt" - Refaat El Sayed

Utloggad MaxB

  • Moderator
  • Elvis
  • ******
  • Antal inlägg: 16 739
    • Visa profil
    • http://elvshand.shivas.se
  • Soundcloud: gitarr
SV: Out Of Kontroll - JAM-låtar
« Svar #17 skrivet: 08.09.2011, 13:25:17 »
Jag hakar på. Gillar att köra plocket i den. Kan även till viss del ta nån vers av sången. Den där grabben i videon sjunger texten fel.
Jag lever i dået nu och är ingen kändis. Det är min Mini-Magitron - på Google

Utloggad Fuzzbub

  • Idol
  • ****
  • Antal inlägg: 1 599
  • Gitarrspelande protopunkdiggande exilnorrlänning!
    • Visa profil
    • AboutHen på Soundcloud
SV: Out Of Kontroll - JAM-låtar
« Svar #18 skrivet: 08.09.2011, 13:49:50 »
Jag hakar på. Gillar att köra plocket i den. Kan även till viss del ta nån vers av sången. Den där grabben i videon sjunger texten fel.

 :D   Det är tur att det finns nån som har koll och kan styra upp!   ;)     Vi testar väl den tycker jag!   /JEH
"Vi simmar alla i samma båt" - Refaat El Sayed

Utloggad MaxB

  • Moderator
  • Elvis
  • ******
  • Antal inlägg: 16 739
    • Visa profil
    • http://elvshand.shivas.se
  • Soundcloud: gitarr
SV: Out Of Kontroll - JAM-låtar
« Svar #19 skrivet: 08.09.2011, 16:17:20 »
Jag hakar på. Gillar att köra plocket i den. Kan även till viss del ta nån vers av sången. Den där grabben i videon sjunger texten fel.

 :D   Det är tur att det finns nån som har koll och kan styra upp!   ;)     Vi testar väl den tycker jag!   /JEH

Dom borde byta ut den där gitarristen. Han grejar det inte. B)
Jag lever i dået nu och är ingen kändis. Det är min Mini-Magitron - på Google

Utloggad Festivalpool

  • Nykomling
  • *
  • Antal inlägg: 42
    • Visa profil
SV: Out Of Kontroll - JAM-låtar
« Svar #20 skrivet: 08.09.2011, 17:46:29 »
Uppdaterat trådhuvudet med texter och de ackord som kunde hittas.

Utloggad Fuzzbub

  • Idol
  • ****
  • Antal inlägg: 1 599
  • Gitarrspelande protopunkdiggande exilnorrlänning!
    • Visa profil
    • AboutHen på Soundcloud
SV: Out Of Kontroll - JAM-låtar
« Svar #21 skrivet: 09.09.2011, 08:03:27 »
Jag hakar på. Gillar att köra plocket i den. Kan även till viss del ta nån vers av sången. Den där grabben i videon sjunger texten fel.

 :D   Det är tur att det finns nån som har koll och kan styra upp!   ;)     Vi testar väl den tycker jag!   /JEH

Dom borde byta ut den där gitarristen. Han grejar det inte. B)

 :lol: :lol:    Det blir en stressig kväll för dig Max!   :P    /JEH
"Vi simmar alla i samma båt" - Refaat El Sayed

Utloggad MaxB

  • Moderator
  • Elvis
  • ******
  • Antal inlägg: 16 739
    • Visa profil
    • http://elvshand.shivas.se
  • Soundcloud: gitarr
SV: Out Of Kontroll - JAM-låtar
« Svar #22 skrivet: 09.09.2011, 10:14:34 »
Lugnt!  B)
Jag lever i dået nu och är ingen kändis. Det är min Mini-Magitron - på Google

Utloggad IKEN

  • Moderator
  • List-etta
  • ******
  • Antal inlägg: 983
    • Visa profil
SV: Out Of Kontroll - JAM-låtar
« Svar #23 skrivet: 09.09.2011, 10:32:00 »
Jag ser fram mot att lyssna på alla jam,gillar sådant. :D
''Can i have everything louder than anything else''
Ritchie Blackmore 1972

Utloggad badlands

  • Moderator
  • Talang
  • ******
  • Antal inlägg: 436
    • Visa profil
SV: Out Of Kontroll - JAM-låtar
« Svar #24 skrivet: 09.09.2011, 12:26:57 »
Jag ser fram mot att lyssna på alla jam,gillar sådant. :D
Här är ytterligare en som "bara" tänker lyssna på alla JAM-sessions.
Är alldeles för taskig som musiker för att ens försöka vara delaktig i ett alster som redan "finns"
Nobody sings Dylan like Dylan

Utloggad MaxB

  • Moderator
  • Elvis
  • ******
  • Antal inlägg: 16 739
    • Visa profil
    • http://elvshand.shivas.se
  • Soundcloud: gitarr
SV: Out Of Kontroll - JAM-låtar
« Svar #25 skrivet: 09.09.2011, 13:17:56 »
E Iken E  :P
Jag lever i dået nu och är ingen kändis. Det är min Mini-Magitron - på Google

Utloggad Fuzzbub

  • Idol
  • ****
  • Antal inlägg: 1 599
  • Gitarrspelande protopunkdiggande exilnorrlänning!
    • Visa profil
    • AboutHen på Soundcloud
SV: Out Of Kontroll - JAM-låtar
« Svar #26 skrivet: 09.09.2011, 16:35:06 »
Jag ser fram mot att lyssna på alla jam,gillar sådant. :D
Här är ytterligare en som "bara" tänker lyssna på alla JAM-sessions.
Är alldeles för taskig som musiker för att ens försöka vara delaktig i ett alster som redan "finns"

Pfffft!   Efter några öl är jag rätt säker på att ni två kommer att stå på scen och röja järnet!   XD
"Vi simmar alla i samma båt" - Refaat El Sayed

Utloggad badlands

  • Moderator
  • Talang
  • ******
  • Antal inlägg: 436
    • Visa profil
SV: Out Of Kontroll - JAM-låtar
« Svar #27 skrivet: 09.09.2011, 16:53:00 »
Jag ser fram mot att lyssna på alla jam,gillar sådant. :D
Här är ytterligare en som "bara" tänker lyssna på alla JAM-sessions.
Är alldeles för taskig som musiker för att ens försöka vara delaktig i ett alster som redan "finns"

Pfffft!   Efter några öl är jag rätt säker på att ni två kommer att stå på scen och röja järnet!   XD
Nop, not me  :lol:
Nobody sings Dylan like Dylan

Utloggad badlands

  • Moderator
  • Talang
  • ******
  • Antal inlägg: 436
    • Visa profil
SV: Out Of Kontroll - JAM-låtar
« Svar #28 skrivet: 09.09.2011, 17:45:49 »
Om någon fingerfärdig gitarrist kan köra introt så är ju Little Wing jäkligt bra att jamma till.  Superb låt dessutom! 

 /JEH

Om Little Wing ska köra borde denna vara den enda schyssta versionen...
Nobody sings Dylan like Dylan

Utloggad Fuzzbub

  • Idol
  • ****
  • Antal inlägg: 1 599
  • Gitarrspelande protopunkdiggande exilnorrlänning!
    • Visa profil
    • AboutHen på Soundcloud
SV: Out Of Kontroll - JAM-låtar
« Svar #29 skrivet: 09.09.2011, 22:29:14 »
Om någon fingerfärdig gitarrist kan köra introt så är ju Little Wing jäkligt bra att jamma till.  Superb låt dessutom! 

[link]http://www.youtube.com/watch?v=askw_TvY0sU&feature=related[/link]  /JEH

Om Little Wing ska köra borde denna vara den enda schyssta versionen...
[link]http://www.youtube.com/watch?v=zAG-kX_IlUw.[/link]

Den enda, det tycker jag verkligen inte.  Det finns flera bra versioner!   /JEH
"Vi simmar alla i samma båt" - Refaat El Sayed

Utloggad MaxB

  • Moderator
  • Elvis
  • ******
  • Antal inlägg: 16 739
    • Visa profil
    • http://elvshand.shivas.se
  • Soundcloud: gitarr
SV: Out Of Kontroll - JAM-låtar
« Svar #30 skrivet: 09.09.2011, 23:55:00 »
Jimis version från liveplattan In the west är min favorit.

Jag lever i dået nu och är ingen kändis. Det är min Mini-Magitron - på Google

Utloggad Eddi

  • Moderator
  • Elvis
  • ******
  • Antal inlägg: 12 931
    • Visa profil
    • Harmonisnurran det stora uppslagsverket i det lilla formatet
SV: Out Of Kontroll - JAM-låtar
« Svar #31 skrivet: 10.09.2011, 02:50:00 »
Om du kör den så här så kan vi hålla takten på nåt sätt :lol:
Strävar framåt men blickar bakåt för säkerhets skull
Harmonisnurran det stora uppslagsverket i det lilla formatet:
http://www.wideworld.se

Utloggad MaxB

  • Moderator
  • Elvis
  • ******
  • Antal inlägg: 16 739
    • Visa profil
    • http://elvshand.shivas.se
  • Soundcloud: gitarr
SV: Out Of Kontroll - JAM-låtar
« Svar #32 skrivet: 10.09.2011, 08:54:32 »
Lugnt!  B)
Jag lever i dået nu och är ingen kändis. Det är min Mini-Magitron - på Google

Utloggad Fuzzbub

  • Idol
  • ****
  • Antal inlägg: 1 599
  • Gitarrspelande protopunkdiggande exilnorrlänning!
    • Visa profil
    • AboutHen på Soundcloud
SV: Out Of Kontroll - JAM-låtar
« Svar #33 skrivet: 11.09.2011, 09:13:24 »
Lugnt!  B)

Ja du kör bara plockgrejset och det där som Jimi kör över: 

Em  G  Am   Em   Hm   Am   C   G   F   C   D     :D    /JEH
"Vi simmar alla i samma båt" - Refaat El Sayed

Utloggad MaxB

  • Moderator
  • Elvis
  • ******
  • Antal inlägg: 16 739
    • Visa profil
    • http://elvshand.shivas.se
  • Soundcloud: gitarr
SV: Out Of Kontroll - JAM-låtar
« Svar #34 skrivet: 11.09.2011, 11:13:18 »
Lugnt!  B)

Ja du kör bara plockgrejset och det där som Jimi kör över: 

Em  G  Am   Em   Hm   Am   C   G   F   C   D     :D    /JEH

Jag köper det!
Jag lever i dået nu och är ingen kändis. Det är min Mini-Magitron - på Google